  0
SECTION
  2
HEADER
  9
$ACADVER
  1
AC1015
  9
$ACADMAINTVER
 70
     6
  9
$DWGCODEPAGE
  3
ANSI_1254
  9
$INSBASE
 10
0.0
 20
0.0
 30
0.0
  9
$EXTMIN
 10
0.0
 20
0.0
 30
0.0
  9
$EXTMAX
 10
279.4
 20
215.9
 30
0.0
  9
$LIMMIN
 10
0.0
 20
0.0
  9
$LIMMAX
 10
279.4
 20
215.9
  9
$ORTHOMODE
 70
     0
  9
$REGENMODE
 70
     1
  9
$FILLMODE
 70
     1
  9
$QTEXTMODE
 70
     0
  9
$MIRRTEXT
 70
     1
  9
$LTSCALE
 40
1.0
  9
$ATTMODE
 70
     1
  9
$TEXTSIZE
 40
3.5
  9
$TRACEWID
 40
1.0
  9
$TEXTSTYLE
  7
Standard
  9
$CLAYER
  8
0
  9
$CELTYPE
  6
ByLayer
  9
$CECOLOR
 62
   256
  9
$CELTSCALE
 40
1.0
  9
$DISPSILH
 70
     0
  9
$DIMSCALE
 40
1.0
  9
$DIMASZ
 40
3.5
  9
$DIMEXO
 40
1.0
  9
$DIMDLI
 40
3.75
  9
$DIMRND
 40
0.0
  9
$DIMDLE
 40
0.0
  9
$DIMEXE
 40
1.0
  9
$DIMTP
 40
0.0
  9
$DIMTM
 40
0.0
  9
$DIMTXT
 40
3.5
  9
$DIMCEN
 40
2.5
  9
$DIMTSZ
 40
0.0
  9
$DIMTOL
 70
     0
  9
$DIMLIM
 70
     0
  9
$DIMTIH
 70
     1
  9
$DIMTOH
 70
     1
  9
$DIMSE1
 70
     0
  9
$DIMSE2
 70
     0
  9
$DIMTAD
 70
     1
  9
$DIMZIN
 70
     0
  9
$DIMBLK
  1

  9
$DIMASO
 70
     1
  9
$DIMSHO
 70
     1
  9
$DIMPOST
  1

  9
$DIMAPOST
  1

  9
$DIMALT
 70
     0
  9
$DIMALTD
 70
     3
  9
$DIMALTF
 40
0.0393700787
  9
$DIMLFAC
 40
1.0
  9
$DIMTOFL
 70
     1
  9
$DIMTVP
 40
0.0
  9
$DIMTIX
 70
     0
  9
$DIMSOXD
 70
     0
  9
$DIMSAH
 70
     0
  9
$DIMBLK1
  1

  9
$DIMBLK2
  1

  9
$DIMSTYLE
  2
ISO-25
  9
$DIMCLRD
 70
     0
  9
$DIMCLRE
 70
     0
  9
$DIMCLRT
 70
     0
  9
$DIMTFAC
 40
1.0
  9
$DIMGAP
 40
1.524
  9
$DIMJUST
 70
     0
  9
$DIMSD1
 70
     0
  9
$DIMSD2
 70
     0
  9
$DIMTOLJ
 70
     0
  9
$DIMTZIN
 70
     0
  9
$DIMALTZ
 70
     0
  9
$DIMALTTZ
 70
     0
  9
$DIMUPT
 70
     0
  9
$DIMDEC
 70
     2
  9
$DIMTDEC
 70
     2
  9
$DIMALTU
 70
     2
  9
$DIMALTTD
 70
     3
  9
$DIMTXSTY
  7
Standard
  9
$DIMAUNIT
 70
     0
  9
$DIMADEC
 70
     2
  9
$DIMALTRND
 40
0.0
  9
$DIMAZIN
 70
     0
  9
$DIMDSEP
 70
    44
  9
$DIMATFIT
 70
     3
  9
$DIMFRAC
 70
     0
  9
$DIMLDRBLK
  1

  9
$DIMLUNIT
 70
     2
  9
$DIMLWD
 70
    -2
  9
$DIMLWE
 70
    -2
  9
$DIMTMOVE
 70
     0
  9
$LUNITS
 70
     2
  9
$LUPREC
 70
     2
  9
$SKETCHINC
 40
1.0
  9
$FILLETRAD
 40
10.0
  9
$AUNITS
 70
     0
  9
$AUPREC
 70
     2
  9
$MENU
  1
.
  9
$ELEVATION
 40
0.0
  9
$PELEVATION
 40
0.0
  9
$THICKNESS
 40
0.0
  9
$LIMCHECK
 70
     0
  9
$CHAMFERA
 40
0.0
  9
$CHAMFERB
 40
0.0
  9
$CHAMFERC
 40
0.0
  9
$CHAMFERD
 40
0.0
  9
$SKPOLY
 70
     0
  9
$TDCREATE
 40
2458985.699472245
  9
$TDUCREATE
 40
2458985.574472245
  9
$TDUPDATE
 40
2458985.699472512
  9
$TDUUPDATE
 40
2458985.574472512
  9
$TDINDWG
 40
0.0000000116
  9
$TDUSRTIMER
 40
0.0000000116
  9
$USRTIMER
 70
     1
  9
$ANGBASE
 50
0.0
  9
$ANGDIR
 70
     0
  9
$PDMODE
 70
     0
  9
$PDSIZE
 40
-1.0
  9
$PLINEWID
 40
0.0
  9
$SPLFRAME
 70
     0
  9
$SPLINETYPE
 70
     6
  9
$SPLINESEGS
 70
     8
  9
$HANDSEED
  5
F1
  9
$SURFTAB1
 70
     6
  9
$SURFTAB2
 70
     6
  9
$SURFTYPE
 70
     6
  9
$SURFU
 70
     6
  9
$SURFV
 70
     6
  9
$UCSBASE
  2

  9
$UCSNAME
  2

  9
$UCSORG
 10
0.0
 20
0.0
 30
0.0
  9
$UCSXDIR
 10
1.0
 20
0.0
 30
0.0
  9
$UCSYDIR
 10
0.0
 20
1.0
 30
0.0
  9
$UCSORTHOREF
  2

  9
$UCSORTHOVIEW
 70
     0
  9
$UCSORGTOP
 10
0.0
 20
0.0
 30
0.0
  9
$UCSORGBOTTOM
 10
0.0
 20
0.0
 30
0.0
  9
$UCSORGLEFT
 10
0.0
 20
0.0
 30
0.0
  9
$UCSORGRIGHT
 10
0.0
 20
0.0
 30
0.0
  9
$UCSORGFRONT
 10
0.0
 20
0.0
 30
0.0
  9
$UCSORGBACK
 10
0.0
 20
0.0
 30
0.0
  9
$PUCSBASE
  2

  9
$PUCSNAME
  2

  9
$PUCSORG
 10
0.0
 20
0.0
 30
0.0
  9
$PUCSXDIR
 10
1.0
 20
0.0
 30
0.0
  9
$PUCSYDIR
 10
0.0
 20
1.0
 30
0.0
  9
$PUCSORTHOREF
  2

  9
$PUCSORTHOVIEW
 70
     0
  9
$PUCSORGTOP
 10
0.0
 20
0.0
 30
0.0
  9
$PUCSORGBOTTOM
 10
0.0
 20
0.0
 30
0.0
  9
$PUCSORGLEFT
 10
0.0
 20
0.0
 30
0.0
  9
$PUCSORGRIGHT
 10
0.0
 20
0.0
 30
0.0
  9
$PUCSORGFRONT
 10
0.0
 20
0.0
 30
0.0
  9
$PUCSORGBACK
 10
0.0
 20
0.0
 30
0.0
  9
$USERI1
 70
     0
  9
$USERI2
 70
     0
  9
$USERI3
 70
     0
  9
$USERI4
 70
     0
  9
$USERI5
 70
     0
  9
$USERR1
 40
0.0
  9
$USERR2
 40
0.0
  9
$USERR3
 40
0.0
  9
$USERR4
 40
0.0
  9
$USERR5
 40
0.0
  9
$WORLDVIEW
 70
     1
  9
$SHADEDGE
 70
     3
  9
$SHADEDIF
 70
    70
  9
$TILEMODE
 70
     1
  9
$MAXACTVP
 70
    64
  9
$PINSBASE
 10
0.0
 20
0.0
 30
0.0
  9
$PLIMCHECK
 70
     0
  9
$PEXTMIN
 10
1.0000000000E+20
 20
1.0000000000E+20
 30
1.0000000000E+20
  9
$PEXTMAX
 10
-1.0000000000E+20
 20
-1.0000000000E+20
 30
-1.0000000000E+20
  9
$PLIMMIN
 10
0.0
 20
0.0
  9
$PLIMMAX
 10
420.0
 20
297.0
  9
$UNITMODE
 70
     0
  9
$VISRETAIN
 70
     1
  9
$PLINEGEN
 70
     0
  9
$PSLTSCALE
 70
     1
  9
$TREEDEPTH
 70
  3020
  9
$CMLSTYLE
  2
Standard
  9
$CMLJUST
 70
     0
  9
$CMLSCALE
 40
20.0
  9
$PROXYGRAPHICS
 70
     1
  9
$MEASUREMENT
 70
     1
  9
$CELWEIGHT
370
    -1
  9
$ENDCAPS
280
     0
  9
$JOINSTYLE
280
     0
  9
$LWDISPLAY
290
     1
  9
$INSUNITS
 70
     4
  9
$HYPERLINKBASE
  1

  9
$STYLESHEET
  1

  9
$XEDIT
290
     1
  9
$CEPSNTYPE
380
     0
  9
$PSTYLEMODE
290
     1
  9
$FINGERPRINTGUID
  2
{e9215751-9b74-4b6d-9e9b-68fdf7a2ad96}
  9
$VERSIONGUID
  2
{FAEB1C32-E019-11D5-929B-00C0DF256EC4}
  9
$EXTNAMES
290
     1
  9
$PSVPSCALE
 40
0.0
  9
$OLESTARTUP
290
     0
  0
ENDSEC
  0
SECTION
  2
CLASSES
  0
CLASS
  1
ACDBDICTIONARYWDFLT
  2
AcDbDictionaryWithDefault
  3
ObjectDBX Classes
 90
        0
280
     0
281
     0
  0
CLASS
  1
VISUALSTYLE
  2
AcDbVisualStyle
  3
ObjectDBX Classes
 90
     4095
280
     0
281
     0
  0
CLASS
  1
MATERIAL
  2
AcDbMaterial
  3
ObjectDBX Classes
 90
     1153
280
     0
281
     0
  0
CLASS
  1
SCALE
  2
AcDbScale
  3
ObjectDBX Classes
 90
     1153
280
     0
281
     0
  0
CLASS
  1
TABLESTYLE
  2
AcDbTableStyle
  3
ObjectDBX Classes
 90
     4095
280
     0
281
     0
  0
CLASS
  1
MLEADERSTYLE
  2
AcDbMLeaderStyle
  3
ACDB_MLEADERSTYLE_CLASS
 90
     4095
280
     0
281
     0
  0
CLASS
  1
SUN
  2
AcDbSun
  3
SCENEOE
 90
     1153
280
     0
281
     0
  0
CLASS
  1
ACDBPLACEHOLDER
  2
AcDbPlaceHolder
  3
ObjectDBX Classes
 90
        0
280
     0
281
     0
  0
CLASS
  1
LAYOUT
  2
AcDbLayout
  3
ObjectDBX Classes
 90
        0
280
     0
281
     0
  0
ENDSEC
  0
SECTION
  2
TABLES
  0
TABLE
  2
VPORT
  5
8
330
0
100
AcDbSymbolTable
 70
     1
  0
VPORT
  5
29
330
8
100
AcDbSymbolTableRecord
100
AcDbViewportTableRecord
  2
*Active
 70
     0
 10
0.0
 20
0.0
 11
1.0
 21
1.0
 12
139.7
 22
107.95
 13
0.0
 23
0.0
 14
10.0
 24
10.0
 15
10.0
 25
10.0
 16
0.0
 26
0.0
 36
1.0
 17
0.0
 27
0.0
 37
0.0
 40
215.9
 41
1.2941176471
 42
50.0
 43
0.0
 44
0.0
 50
0.0
 51
0.0
 71
     0
 72
  2000
 73
     1
 74
     3
 75
     0
 76
     0
 77
     0
 78
     0
281
     0
 65
     1
110
0.0
120
0.0
130
0.0
111
1.0
121
0.0
131
0.0
112
0.0
122
1.0
132
0.0
 79
     0
146
0.0
  0
ENDTAB
  0
TABLE
  2
LTYPE
  5
5
330
0
100
AcDbSymbolTable
 70
     6
  0
LTYPE
  5
14
330
5
100
AcDbSymbolTableRecord
100
AcDbLinetypeTableRecord
  2
ByBlock
 70
     0
  3

 72
    65
 73
     0
 40
0.0
  0
LTYPE
  5
15
330
5
100
AcDbSymbolTableRecord
100
AcDbLinetypeTableRecord
  2
ByLayer
 70
     0
  3

 72
    65
 73
     0
 40
0.0
  0
LTYPE
  5
16
330
5
100
AcDbSymbolTableRecord
100
AcDbLinetypeTableRecord
  2
Continuous
 70
     0
  3
Solid line
 72
    65
 73
     0
 40
0.0
  0
LTYPE
  5
6E
330
5
100
AcDbSymbolTableRecord
100
AcDbLinetypeTableRecord
  2
HIDDEN
 70
     0
  3
Hidden __ __ __ __ __ __ __ __ __ __ __ __ __ __
 72
    65
 73
     2
 40
1.905
 49
1.27
 74
     0
 49
-0.635
 74
     0
  0
LTYPE
  5
6F
330
5
100
AcDbSymbolTableRecord
100
AcDbLinetypeTableRecord
  2
PHANTOM
 70
     0
  3
Phantom ______  __  __  ______  __  __  ______
 72
    65
 73
     6
 40
12.7
 49
6.35
 74
     0
 49
-1.27
 74
     0
 49
1.27
 74
     0
 49
-1.27
 74
     0
 49
1.27
 74
     0
 49
-1.27
 74
     0
  0
LTYPE
  5
70
330
5
100
AcDbSymbolTableRecord
100
AcDbLinetypeTableRecord
  2
CENTER
 70
     0
  3
Center ____ _ ____ _ ____ _ ____ _ ____ _ ____
 72
    65
 73
     4
 40
10.16
 49
6.35
 74
     0
 49
-1.27
 74
     0
 49
1.27
 74
     0
 49
-1.27
 74
     0
  0
LTYPE
  5
71
330
5
100
AcDbSymbolTableRecord
100
AcDbLinetypeTableRecord
  2
CENTERX2
 70
     0
  3
Center (2x) ________  __  ________  __  _____
 72
    65
 73
     4
 40
20.32
 49
12.7
 74
     0
 49
-2.54
 74
     0
 49
2.54
 74
     0
 49
-2.54
 74
     0
  0
LTYPE
  5
72
330
5
100
AcDbSymbolTableRecord
100
AcDbLinetypeTableRecord
  2
DOT2
 70
     0
  3
Dot (.5x) ........................................
 72
    65
 73
     2
 40
0.635
 49
0.0
 74
     0
 49
-0.635
 74
     0
  0
ENDTAB
  0
TABLE
  2
LAYER
  5
2
330
0
100
AcDbSymbolTable
 70
    17
  0
LAYER
  5
10
330
2
100
AcDbSymbolTableRecord
100
AcDbLayerTableRecord
  2
0
 70
     0
 62
     7
  6
Continuous
370
    -3
390
F
  0
LAYER
  5
73
330
2
100
AcDbSymbolTableRecord
100
AcDbLayerTableRecord
  2
FORMAT
 70
     0
 62
     7
  6
Continuous
370
    -3
390
F
  0
LAYER
  5
74
330
2
100
AcDbSymbolTableRecord
100
AcDbLayerTableRecord
  2
YARDIMCI_GEOMETRI
 70
     0
 62
    -6
  6
Continuous
290
     0
370
    -3
390
F
  0
LAYER
  5
75
330
2
100
AcDbSymbolTableRecord
100
AcDbLayerTableRecord
  2
SAYFA_CERCEVESI
 70
     0
 62
     7
  6
Continuous
370
    25
390
F
  0
LAYER
  5
76
330
2
100
AcDbSymbolTableRecord
100
AcDbLayerTableRecord
  2
ANTET
 70
     0
 62
     7
  6
Continuous
370
    -3
390
F
  0
LAYER
  5
77
330
2
100
AcDbSymbolTableRecord
100
AcDbLayerTableRecord
  2
OLCU
 70
     0
 62
   150
  6
Continuous
370
    -3
390
F
  0
LAYER
  5
78
330
2
100
AcDbSymbolTableRecord
100
AcDbLayerTableRecord
  2
METIN
 70
     0
 62
    96
  6
Continuous
370
    -3
390
F
  0
LAYER
  5
79
330
2
100
AcDbSymbolTableRecord
100
AcDbLayerTableRecord
  2
BALON
 70
     0
 62
     5
  6
Continuous
370
    -3
390
F
  0
LAYER
  5
7A
330
2
100
AcDbSymbolTableRecord
100
AcDbLayerTableRecord
  2
VURGU
 70
     0
 62
     7
  6
Continuous
370
    -3
390
F
  0
LAYER
  5
7B
330
2
100
AcDbSymbolTableRecord
100
AcDbLayerTableRecord
  2
SILIK
 70
     0
 62
     7
  6
Continuous
370
    -3
390
F
  0
LAYER
  5
7C
330
2
100
AcDbSymbolTableRecord
100
AcDbLayerTableRecord
  2
MODEL
 70
     0
 62
     7
  6
Continuous
370
    -3
390
F
  0
LAYER
  5
7D
330
2
100
AcDbSymbolTableRecord
100
AcDbLayerTableRecord
  2
DETAYLANDıRMA
 70
     0
 62
   190
  6
Continuous
370
    -3
390
F
  0
LAYER
  5
7E
330
2
100
AcDbSymbolTableRecord
100
AcDbLayerTableRecord
  2
TOLERANS
 70
     0
 62
   230
  6
Continuous
370
    -3
390
F
  0
LAYER
  5
7F
330
2
100
AcDbSymbolTableRecord
100
AcDbLayerTableRecord
  2
MERKEZ_CIZGILERI
 70
     0
 62
    30
  6
Continuous
370
    -3
390
F
  0
LAYER
  5
80
330
2
100
AcDbSymbolTableRecord
100
AcDbLayerTableRecord
  2
KESIT-DETAY_CIZGILERI
 70
     0
 62
     7
  6
Continuous
370
    -3
390
F
  0
LAYER
  5
81
330
2
100
AcDbSymbolTableRecord
100
AcDbLayerTableRecord
  2
\U+041E\U+0421\U+0415\U+0412\U+042B\U+0415
 70
     0
 62
     7
  6
Continuous
370
    -3
390
F
  0
LAYER
  5
82
330
2
100
AcDbSymbolTableRecord
100
AcDbLayerTableRecord
  2
\U+0412\U+041E\U+0414\U+042F\U+041D\U+042B\U+0415_\U+0417\U+041D\U+0410\U+041A\U+0418
 70
     0
 62
    11
  6
Continuous
370
    -3
390
F
  0
ENDTAB
  0
TABLE
  2
STYLE
  5
3
330
0
100
AcDbSymbolTable
 70
     1
  0
STYLE
  5
11
330
3
100
AcDbSymbolTableRecord
100
AcDbTextStyleTableRecord
  2
Standard
 70
     0
 40
0.0
 41
1.0
 50
0.0
 71
     0
 42
3.5
  3
txt
  4

  0
ENDTAB
  0
TABLE
  2
VIEW
  5
6
330
0
100
AcDbSymbolTable
 70
     0
  0
ENDTAB
  0
TABLE
  2
UCS
  5
7
330
0
100
AcDbSymbolTable
 70
     0
  0
ENDTAB
  0
TABLE
  2
APPID
  5
9
330
0
100
AcDbSymbolTable
 70
     1
  0
APPID
  5
12
330
9
100
AcDbSymbolTableRecord
100
AcDbRegAppTableRecord
  2
ACAD
 70
     0
  0
ENDTAB
  0
TABLE
  2
DIMSTYLE
  5
A
330
0
100
AcDbSymbolTable
 70
     1
100
AcDbDimStyleTable
  0
DIMSTYLE
105
27
330
A
100
AcDbSymbolTableRecord
100
AcDbDimStyleTableRecord
  2
ISO-25
 70
     0
 41
2.5
 42
0.625
 43
3.75
 44
1.25
 73
     0
 74
     0
 77
     1
 78
     8
140
2.5
141
2.5
143
0.0393700787
147
0.625
171
     3
172
     1
178
     0
271
     2
272
     2
274
     3
278
    44
283
     0
284
     8
340
11
  0
ENDTAB
  0
TABLE
  2
BLOCK_RECORD
  5
1
330
0
100
AcDbSymbolTable
 70
     2
  0
BLOCK_RECORD
  5
1F
330
1
100
AcDbSymbolTableRecord
100
AcDbBlockTableRecord
  2
*Model_Space
340
22
  0
BLOCK_RECORD
  5
1B
330
1
100
AcDbSymbolTableRecord
100
AcDbBlockTableRecord
  2
*Paper_Space
340
1E
  0
BLOCK_RECORD
  5
23
330
1
100
AcDbSymbolTableRecord
100
AcDbBlockTableRecord
  2
*Paper_Space0
340
26
  0
BLOCK_RECORD
  5
88
330
1
100
AcDbSymbolTableRecord
100
AcDbBlockTableRecord
  2
SW_CENTERMARKSYMBOL_0
340
0
102
{BLKREFS
331
93
102
}
  0
ENDTAB
  0
ENDSEC
  0
SECTION
  2
BLOCKS
  0
BLOCK
  5
20
330
1F
100
AcDbEntity
  8
0
100
AcDbBlockBegin
  2
*Model_Space
 70
     0
 10
0.0
 20
0.0
 30
0.0
  3
*Model_Space
  1

  0
ENDBLK
  5
21
330
1F
100
AcDbEntity
  8
0
100
AcDbBlockEnd
  0
BLOCK
  5
1C
330
1B
100
AcDbEntity
 67
     1
  8
0
100
AcDbBlockBegin
  2
*Paper_Space
 70
     0
 10
0.0
 20
0.0
 30
0.0
  3
*Paper_Space
  1

  0
ENDBLK
  5
1D
330
1B
100
AcDbEntity
 67
     1
  8
0
100
AcDbBlockEnd
  0
BLOCK
  5
24
330
23
100
AcDbEntity
  8
0
100
AcDbBlockBegin
  2
*Paper_Space0
 70
     0
 10
0.0
 20
0.0
 30
0.0
  3
*Paper_Space0
  1

  0
ENDBLK
  5
25
330
23
100
AcDbEntity
  8
0
100
AcDbBlockEnd
  0
BLOCK
  5
89
330
88
100
AcDbEntity
  8
0
100
AcDbBlockBegin
  2
SW_CENTERMARKSYMBOL_0
 70
     0
 10
0.0
 20
0.0
 30
0.0
  3
SW_CENTERMARKSYMBOL_0
  1

  0
LINE
  5
8B
330
88
100
AcDbEntity
  8
FORMAT
 62
     0
100
AcDbLine
 10
0.0
 20
0.0
 30
0.0
 11
0.0
 21
2.5
 31
0.0
  0
LINE
  5
8C
330
88
100
AcDbEntity
  8
FORMAT
 62
     0
100
AcDbLine
 10
0.0
 20
0.0
 30
0.0
 11
-2.5
 21
0.0
 31
0.0
  0
LINE
  5
8D
330
88
100
AcDbEntity
  8
FORMAT
 62
     0
100
AcDbLine
 10
0.0
 20
0.0
 30
0.0
 11
0.0
 21
-2.5
 31
0.0
  0
LINE
  5
8E
330
88
100
AcDbEntity
  8
FORMAT
 62
     0
100
AcDbLine
 10
0.0
 20
0.0
 30
0.0
 11
2.5
 21
0.0
 31
0.0
  0
LINE
  5
8F
330
88
100
AcDbEntity
  8
FORMAT
 62
     0
100
AcDbLine
 10
0.0
 20
5.0
 30
0.0
 11
0.0
 21
102.5
 31
0.0
  0
LINE
  5
90
330
88
100
AcDbEntity
  8
FORMAT
 62
     0
100
AcDbLine
 10
-5.0
 20
0.0
 30
0.0
 11
-102.5
 21
0.0
 31
0.0
  0
LINE
  5
91
330
88
100
AcDbEntity
  8
FORMAT
 62
     0
100
AcDbLine
 10
0.0
 20
-5.0
 30
0.0
 11
0.0
 21
-102.5
 31
0.0
  0
LINE
  5
92
330
88
100
AcDbEntity
  8
FORMAT
 62
     0
100
AcDbLine
 10
5.0
 20
0.0
 30
0.0
 11
102.5
 21
0.0
 31
0.0
  0
ENDBLK
  5
8A
330
88
100
AcDbEntity
  8
0
100
AcDbBlockEnd
  0
ENDSEC
  0
SECTION
  2
ENTITIES
  0
CIRCLE
  5
83
330
1F
100
AcDbEntity
  8
0
  6
Continuous
 62
     7
370
    25
100
AcDbCircle
 10
139.395004093
 20
107.5851680021
 30
0.0
 40
100.0
  0
CIRCLE
  5
84
330
1F
100
AcDbEntity
  8
0
  6
Continuous
 62
     7
370
    25
100
AcDbCircle
 10
139.395004093
 20
107.5851680021
 30
0.0
 40
81.8
  0
CIRCLE
  5
85
330
1F
100
AcDbEntity
  8
0
  6
Continuous
 62
     7
370
    25
100
AcDbCircle
 10
139.395004093
 20
107.5851680021
 30
0.0
 40
81.40573108146967
  0
CIRCLE
  5
86
330
1F
100
AcDbEntity
  8
0
  6
Continuous
 62
     7
370
    25
100
AcDbCircle
 10
139.395004093
 20
107.5851680021
 30
0.0
 40
57.69426891853035
  0
CIRCLE
  5
87
330
1F
100
AcDbEntity
  8
0
  6
Continuous
 62
     7
370
    25
100
AcDbCircle
 10
139.395004093
 20
107.5851680021
 30
0.0
 40
57.30000000000004
  0
INSERT
  5
93
330
1F
100
AcDbEntity
  8
FORMAT
 62
     7
100
AcDbBlockReference
  2
SW_CENTERMARKSYMBOL_0
 10
139.395004093
 20
107.5851680021
 30
0.0
  0
LINE
  5
94
330
1F
100
AcDbEntity
  8
0
  6
Continuous
 62
     7
370
    25
100
AcDbLine
 10
-204.7345765127
 20
207.5851694922
 30
0.0
 11
-316.3293913199
 21
207.5851694922
 31
0.0
  0
LINE
  5
95
330
1F
100
AcDbEntity
  8
0
  6
Continuous
 62
     7
370
    25
100
AcDbLine
 10
-316.3293913199
 20
7.585166512
 30
0.0
 11
-204.7345765127
 21
7.585166512
 31
0.0
  0
ARC
  5
96
330
1F
100
AcDbEntity
  8
0
  6
Continuous
 62
     7
370
    25
100
AcDbCircle
 10
-204.7345772924
 20
205.5851680021
 30
0.0
 40
2.000000000000028
100
AcDbArc
 50
67.0942303416
 51
90.0
  0
ARC
  5
97
330
1F
100
AcDbEntity
  8
0
  6
Continuous
 62
     7
370
    25
100
AcDbCircle
 10
-204.7345772924
 20
9.5851680021
 30
0.0
 40
2.000000000000003
100
AcDbArc
 50
270.0
 51
292.9057696584
  0
LINE
  5
98
330
1F
100
AcDbEntity
  8
0
  6
Continuous
 62
     7
370
    25
100
AcDbLine
 10
-203.9561435772
 20
7.7428729515
 30
0.0
 11
-133.7026260985
 21
37.4274612646
 31
0.0
  0
LINE
  5
99
330
1F
100
AcDbEntity
  8
0
  6
Continuous
 62
     7
370
    25
100
AcDbLine
 10
-133.7026260985
 20
177.7428747396
 30
0.0
 11
-203.9561435772
 21
207.4274630527
 31
0.0
  0
ARC
  5
9A
330
1F
100
AcDbEntity
  8
0
  6
Continuous
 62
     7
370
    25
100
AcDbCircle
 10
-132.9241929337
 20
179.5851680021
 30
0.0
 40
2.000000000000038
100
AcDbArc
 50
247.0942303416
 51
270.0
  0
ARC
  5
9B
330
1F
100
AcDbEntity
  8
0
  6
Continuous
 62
     7
370
    25
100
AcDbCircle
 10
-132.9241929337
 20
35.5851680021
 30
0.0
 40
2.000000000000019
100
AcDbArc
 50
90.0
 51
112.9057696584
  0
LINE
  5
9C
330
1F
100
AcDbEntity
  8
0
  6
Continuous
 62
     7
370
    25
100
AcDbLine
 10
-41.3293853594
 20
177.5851683001
 30
0.0
 11
-132.924193163
 21
177.5851683001
 31
0.0
  0
LINE
  5
9D
330
1F
100
AcDbEntity
  8
0
  6
Continuous
 62
     7
370
    25
100
AcDbLine
 10
-132.924193163
 20
37.5851677041
 30
0.0
 11
-41.3293853594
 21
37.5851677041
 31
0.0
  0
LINE
  5
9E
330
1F
100
AcDbEntity
  8
0
  6
Continuous
 62
     7
370
    25
100
AcDbLine
 10
-316.3293913199
 20
207.5851694922
 30
0.0
 11
-316.3293913199
 21
7.585166512
 31
0.0
  0
LINE
  5
9F
330
1F
100
AcDbEntity
  8
0
  6
Continuous
 62
     7
370
    25
100
AcDbLine
 10
-41.3293853594
 20
177.5851683001
 30
0.0
 11
-41.3293853594
 21
37.5851677041
 31
0.0
  0
LINE
  5
A0
330
1F
100
AcDbEntity
  8
0
  6
Continuous
 62
     1
370
    25
100
AcDbLine
 10
-204.7345765127
 20
207.5851694922
 30
0.0
 11
-204.7345765127
 21
7.585166512
 31
0.0
  0
LINE
  5
A1
330
1F
100
AcDbEntity
  8
0
  6
Continuous
 62
     1
370
    25
100
AcDbLine
 10
-203.9561435772
 20
207.4274630527
 30
0.0
 11
-203.9561435772
 21
7.7428729515
 31
0.0
  0
LINE
  5
A2
330
1F
100
AcDbEntity
  8
0
  6
Continuous
 62
     1
370
    25
100
AcDbLine
 10
-133.7026260985
 20
177.7428747396
 30
0.0
 11
-133.7026260985
 21
37.4274612646
 31
0.0
  0
LINE
  5
A3
330
1F
100
AcDbEntity
  8
0
  6
Continuous
 62
     1
370
    25
100
AcDbLine
 10
-132.924193163
 20
177.5851683001
 30
0.0
 11
-132.924193163
 21
37.5851677041
 31
0.0
  0
LINE
  5
A4
330
1F
100
AcDbEntity
  8
0
  6
Continuous
 62
     7
370
    25
100
AcDbLine
 10
481.1909444053
 20
7.585166512
 30
0.0
 11
592.7857592125
 21
7.585166512
 31
0.0
  0
LINE
  5
A5
330
1F
100
AcDbEntity
  8
0
  6
Continuous
 62
     7
370
    25
100
AcDbLine
 10
592.7857592125
 20
207.5851694922
 30
0.0
 11
481.1909444053
 21
207.5851694922
 31
0.0
  0
ARC
  5
A6
330
1F
100
AcDbEntity
  8
0
  6
Continuous
 62
     7
370
    25
100
AcDbCircle
 10
481.190945185
 20
9.5851680021
 30
0.0
 40
2.000000000000021
100
AcDbArc
 50
247.0942303416
 51
270.0
  0
ARC
  5
A7
330
1F
100
AcDbEntity
  8
0
  6
Continuous
 62
     7
370
    25
100
AcDbCircle
 10
481.190945185
 20
205.5851680021
 30
0.0
 40
2.000000000000038
100
AcDbArc
 50
90.0
 51
112.9057696584
  0
LINE
  5
A8
330
1F
100
AcDbEntity
  8
0
  6
Continuous
 62
     7
370
    25
100
AcDbLine
 10
480.4125114699
 20
207.4274630527
 30
0.0
 11
410.1589939912
 21
177.7428747396
 31
0.0
  0
LINE
  5
A9
330
1F
100
AcDbEntity
  8
0
  6
Continuous
 62
     7
370
    25
100
AcDbLine
 10
410.1589939912
 20
37.4274612646
 30
0.0
 11
480.4125114699
 21
7.7428729515
 31
0.0
  0
ARC
  5
AA
330
1F
100
AcDbEntity
  8
0
  6
Continuous
 62
     7
370
    25
100
AcDbCircle
 10
409.3805608263
 20
35.5851680021
 30
0.0
 40
2.000000000000019
100
AcDbArc
 50
67.0942303416
 51
90.0
  0
ARC
  5
AB
330
1F
100
AcDbEntity
  8
0
  6
Continuous
 62
     7
370
    25
100
AcDbCircle
 10
409.3805608263
 20
179.5851680021
 30
0.0
 40
2.000000000000038
100
AcDbArc
 50
270.0
 51
292.9057696584
  0
LINE
  5
AC
330
1F
100
AcDbEntity
  8
0
  6
Continuous
 62
     7
370
    25
100
AcDbLine
 10
317.785753252
 20
37.5851677041
 30
0.0
 11
409.3805610557
 21
37.5851677041
 31
0.0
  0
LINE
  5
AD
330
1F
100
AcDbEntity
  8
0
  6
Continuous
 62
     7
370
    25
100
AcDbLine
 10
409.3805610557
 20
177.5851683001
 30
0.0
 11
317.785753252
 21
177.5851683001
 31
0.0
  0
LINE
  5
AE
330
1F
100
AcDbEntity
  8
0
  6
Continuous
 62
     7
370
    25
100
AcDbLine
 10
592.7857592125
 20
107.5851680021
 30
0.0
 11
592.7857592125
 21
207.5851694922
 31
0.0
  0
LINE
  5
AF
330
1F
100
AcDbEntity
  8
0
  6
Continuous
 62
     7
370
    25
100
AcDbLine
 10
592.7857592125
 20
7.585166512
 30
0.0
 11
592.7857592125
 21
107.5851680021
 31
0.0
  0
LINE
  5
B0
330
1F
100
AcDbEntity
  8
0
  6
Continuous
 62
     7
370
    25
100
AcDbLine
 10
317.785753252
 20
107.5851680021
 30
0.0
 11
317.785753252
 21
177.5851683001
 31
0.0
  0
LINE
  5
B1
330
1F
100
AcDbEntity
  8
0
  6
Continuous
 62
     7
370
    25
100
AcDbLine
 10
317.785753252
 20
37.5851677041
 30
0.0
 11
317.785753252
 21
107.5851680021
 31
0.0
  0
LINE
  5
B2
330
1F
100
AcDbEntity
  8
0
  6
Continuous
 62
     1
370
    25
100
AcDbLine
 10
481.1909444053
 20
107.5851680021
 30
0.0
 11
481.1909444053
 21
207.5851694922
 31
0.0
  0
LINE
  5
B3
330
1F
100
AcDbEntity
  8
0
  6
Continuous
 62
     1
370
    25
100
AcDbLine
 10
481.1909444053
 20
7.585166512
 30
0.0
 11
481.1909444053
 21
107.5851680021
 31
0.0
  0
LINE
  5
B4
330
1F
100
AcDbEntity
  8
0
  6
Continuous
 62
     1
370
    25
100
AcDbLine
 10
480.4125114699
 20
107.5851680021
 30
0.0
 11
480.4125114699
 21
207.4274630527
 31
0.0
  0
LINE
  5
B5
330
1F
100
AcDbEntity
  8
0
  6
Continuous
 62
     1
370
    25
100
AcDbLine
 10
480.4125114699
 20
7.7428729515
 30
0.0
 11
480.4125114699
 21
107.5851680021
 31
0.0
  0
LINE
  5
B6
330
1F
100
AcDbEntity
  8
0
  6
Continuous
 62
     1
370
    25
100
AcDbLine
 10
410.1589939912
 20
107.5851680021
 30
0.0
 11
410.1589939912
 21
177.7428747396
 31
0.0
  0
LINE
  5
B7
330
1F
100
AcDbEntity
  8
0
  6
Continuous
 62
     1
370
    25
100
AcDbLine
 10
410.1589939912
 20
37.4274612646
 30
0.0
 11
410.1589939912
 21
107.5851680021
 31
0.0
  0
LINE
  5
B8
330
1F
100
AcDbEntity
  8
0
  6
Continuous
 62
     1
370
    25
100
AcDbLine
 10
409.3805610557
 20
107.5851680021
 30
0.0
 11
409.3805610557
 21
177.5851683001
 31
0.0
  0
LINE
  5
B9
330
1F
100
AcDbEntity
  8
0
  6
Continuous
 62
     1
370
    25
100
AcDbLine
 10
409.3805610557
 20
37.5851677041
 30
0.0
 11
409.3805610557
 21
107.5851680021
 31
0.0
  0
LINE
  5
BA
330
1F
100
AcDbEntity
  8
0
  6
Continuous
 62
     7
370
    25
100
AcDbLine
 10
239.3950055832
 20
405.9966284697
 30
0.0
 11
239.3950055832
 21
517.5914432769
 31
0.0
  0
LINE
  5
BB
330
1F
100
AcDbEntity
  8
0
  6
Continuous
 62
     7
370
    25
100
AcDbLine
 10
39.3950026029
 20
517.5914432769
 30
0.0
 11
39.3950026029
 21
405.9966284697
 31
0.0
  0
ARC
  5
BC
330
1F
100
AcDbEntity
  8
0
  6
Continuous
 62
     7
370
    25
100
AcDbCircle
 10
237.395004093
 20
405.9966292494
 30
0.0
 40
2.000000000000012
100
AcDbArc
 50
337.0942303416
 51
0.0
  0
ARC
  5
BD
330
1F
100
AcDbEntity
  8
0
  6
Continuous
 62
     7
370
    25
100
AcDbCircle
 10
41.395004093
 20
405.9966292494
 30
0.0
 40
2.000000000000019
100
AcDbArc
 50
180.0
 51
202.9057696584
  0
LINE
  5
BE
330
1F
100
AcDbEntity
  8
0
  6
Continuous
 62
     7
370
    25
100
AcDbLine
 10
39.5527090424
 20
405.2181955343
 30
0.0
 11
69.2372973555
 21
334.9646780556
 31
0.0
  0
LINE
  5
BF
330
1F
100
AcDbEntity
  8
0
  6
Continuous
 62
     7
370
    25
100
AcDbLine
 10
209.5527108306
 20
334.9646780556
 30
0.0
 11
239.2372991437
 21
405.2181955343
 31
0.0
  0
ARC
  5
C0
330
1F
100
AcDbEntity
  8
0
  6
Continuous
 62
     7
370
    25
100
AcDbCircle
 10
211.395004093
 20
334.1862448908
 30
0.0
 40
2.0
100
AcDbArc
 50
157.0942303416
 51
180.0
  0
ARC
  5
C1
330
1F
100
AcDbEntity
  8
0
  6
Continuous
 62
     7
370
    25
100
AcDbCircle
 10
67.395004093
 20
334.1862448908
 30
0.0
 40
2.000000000000003
100
AcDbArc
 50
0.0
 51
22.9057696584
  0
LINE
  5
C2
330
1F
100
AcDbEntity
  8
0
  6
Continuous
 62
     7
370
    25
100
AcDbLine
 10
209.3950043911
 20
242.5914373165
 30
0.0
 11
209.3950043911
 21
334.1862451201
 31
0.0
  0
LINE
  5
C3
330
1F
100
AcDbEntity
  8
0
  6
Continuous
 62
     7
370
    25
100
AcDbLine
 10
69.395003795
 20
334.1862451201
 30
0.0
 11
69.395003795
 21
242.5914373165
 31
0.0
  0
LINE
  5
C4
330
1F
100
AcDbEntity
  8
0
  6
Continuous
 62
     7
370
    25
100
AcDbLine
 10
239.3950055832
 20
517.5914432769
 30
0.0
 11
39.3950026029
 21
517.5914432769
 31
0.0
  0
LINE
  5
C5
330
1F
100
AcDbEntity
  8
0
  6
Continuous
 62
     7
370
    25
100
AcDbLine
 10
209.3950043911
 20
242.5914373165
 30
0.0
 11
69.395003795
 21
242.5914373165
 31
0.0
  0
LINE
  5
C6
330
1F
100
AcDbEntity
  8
0
  6
Continuous
 62
     1
370
    25
100
AcDbLine
 10
239.3950055832
 20
405.9966284697
 30
0.0
 11
39.3950026029
 21
405.9966284697
 31
0.0
  0
LINE
  5
C7
330
1F
100
AcDbEntity
  8
0
  6
Continuous
 62
     1
370
    25
100
AcDbLine
 10
239.2372991437
 20
405.2181955343
 30
0.0
 11
39.5527090424
 21
405.2181955343
 31
0.0
  0
LINE
  5
C8
330
1F
100
AcDbEntity
  8
0
  6
Continuous
 62
     1
370
    25
100
AcDbLine
 10
209.5527108306
 20
334.9646780556
 30
0.0
 11
69.2372973555
 21
334.9646780556
 31
0.0
  0
LINE
  5
C9
330
1F
100
AcDbEntity
  8
0
  6
Continuous
 62
     1
370
    25
100
AcDbLine
 10
209.3950043911
 20
334.1862451201
 30
0.0
 11
69.395003795
 21
334.1862451201
 31
0.0
  0
LINE
  5
CA
330
1F
100
AcDbEntity
  8
0
  6
Continuous
 62
     7
370
    25
100
AcDbLine
 10
39.3950026029
 20
-204.8869199518
 30
0.0
 11
39.3950026029
 21
-316.481734759
 31
0.0
  0
LINE
  5
CB
330
1F
100
AcDbEntity
  8
0
  6
Continuous
 62
     7
370
    25
100
AcDbLine
 10
239.3950055832
 20
-316.481734759
 30
0.0
 11
239.3950055832
 21
-204.8869199518
 31
0.0
  0
ARC
  5
CC
330
1F
100
AcDbEntity
  8
0
  6
Continuous
 62
     7
370
    25
100
AcDbCircle
 10
41.395004093
 20
-204.8869207315
 30
0.0
 40
2.0
100
AcDbArc
 50
157.0942303416
 51
180.0
  0
ARC
  5
CD
330
1F
100
AcDbEntity
  8
0
  6
Continuous
 62
     7
370
    25
100
AcDbCircle
 10
237.395004093
 20
-204.8869207315
 30
0.0
 40
2.0
100
AcDbArc
 50
0.0
 51
22.9057696584
  0
LINE
  5
CE
330
1F
100
AcDbEntity
  8
0
  6
Continuous
 62
     7
370
    25
100
AcDbLine
 10
239.2372991437
 20
-204.1084870163
 30
0.0
 11
209.5527108306
 21
-133.8549695376
 31
0.0
  0
LINE
  5
CF
330
1F
100
AcDbEntity
  8
0
  6
Continuous
 62
     7
370
    25
100
AcDbLine
 10
69.2372973555
 20
-133.8549695376
 30
0.0
 11
39.5527090424
 21
-204.1084870163
 31
0.0
  0
ARC
  5
D0
330
1F
100
AcDbEntity
  8
0
  6
Continuous
 62
     7
370
    25
100
AcDbCircle
 10
67.395004093
 20
-133.0765363728
 30
0.0
 40
2.000000000000025
100
AcDbArc
 50
337.0942303416
 51
0.0
  0
ARC
  5
D1
330
1F
100
AcDbEntity
  8
0
  6
Continuous
 62
     7
370
    25
100
AcDbCircle
 10
211.395004093
 20
-133.0765363728
 30
0.0
 40
2.000000000000012
100
AcDbArc
 50
180.0
 51
202.9057696584
  0
LINE
  5
D2
330
1F
100
AcDbEntity
  8
0
  6
Continuous
 62
     7
370
    25
100
AcDbLine
 10
69.395003795
 20
-41.4817287985
 30
0.0
 11
69.395003795
 21
-133.0765366022
 31
0.0
  0
LINE
  5
D3
330
1F
100
AcDbEntity
  8
0
  6
Continuous
 62
     7
370
    25
100
AcDbLine
 10
209.3950043911
 20
-133.0765366022
 30
0.0
 11
209.3950043911
 21
-41.4817287985
 31
0.0
  0
LINE
  5
D4
330
1F
100
AcDbEntity
  8
0
  6
Continuous
 62
     7
370
    25
100
AcDbLine
 10
39.3950026029
 20
-316.481734759
 30
0.0
 11
239.3950055832
 21
-316.481734759
 31
0.0
  0
LINE
  5
D5
330
1F
100
AcDbEntity
  8
0
  6
Continuous
 62
     7
370
    25
100
AcDbLine
 10
69.395003795
 20
-41.4817287985
 30
0.0
 11
209.3950043911
 21
-41.4817287985
 31
0.0
  0
LINE
  5
D6
330
1F
100
AcDbEntity
  8
0
  6
Continuous
 62
     1
370
    25
100
AcDbLine
 10
39.3950026029
 20
-204.8869199518
 30
0.0
 11
239.3950055832
 21
-204.8869199518
 31
0.0
  0
LINE
  5
D7
330
1F
100
AcDbEntity
  8
0
  6
Continuous
 62
     1
370
    25
100
AcDbLine
 10
39.5527090424
 20
-204.1084870163
 30
0.0
 11
239.2372991437
 21
-204.1084870163
 31
0.0
  0
LINE
  5
D8
330
1F
100
AcDbEntity
  8
0
  6
Continuous
 62
     1
370
    25
100
AcDbLine
 10
69.2372973555
 20
-133.8549695376
 30
0.0
 11
209.5527108306
 21
-133.8549695376
 31
0.0
  0
LINE
  5
D9
330
1F
100
AcDbEntity
  8
0
  6
Continuous
 62
     1
370
    25
100
AcDbLine
 10
69.395003795
 20
-133.0765366022
 30
0.0
 11
209.3950043911
 21
-133.0765366022
 31
0.0
  0
LINE
  5
DA
330
1F
100
AcDbEntity
  8
0
  6
Continuous
 62
     7
370
    25
100
AcDbLine
 10
490.081065317
 20
-73.0998725449
 30
0.0
 11
411.1716150216
 21
-27.5464165219
 31
0.0
  0
LINE
  5
DB
330
1F
100
AcDbEntity
  8
0
  6
Continuous
 62
     7
370
    25
100
AcDbLine
 10
311.1797447527
 20
-200.756189971
 30
0.0
 11
390.0891950481
 21
-246.3096459939
 31
0.0
  0
SPLINE
  5
DC
330
1F
100
AcDbEntity
  8
0
  6
Continuous
 62
     7
370
    25
100
AcDbSpline
210
0.0
220
0.0
230
1.0
 70
     8
 71
     3
 72
    11
 73
     7
 74
     0
 42
0.000000001
 43
0.00000001
 40
0.0
 40
0.0
 40
0.0
 40
0.0
 40
0.123846413958883
 40
0.5284703605119171
 40
0.9320483157995424
 40
1.0
 40
1.0
 40
1.0
 40
1.0
 10
499.7319165434577
 20
-81.32297557338103
 30
0.0
 10
499.5388588113942
 20
-81.07949666492415
 30
0.0
 10
498.715053858131
 20
-80.04053734090213
 30
0.0
 10
497.1005721241789
 20
-78.41341873443137
 30
0.0
 10
495.5452974665419
 20
-76.93414264412812
 30
0.0
 10
494.6334499716751
 20
-76.24900798670312
 30
0.0
 10
494.5020445035534
 20
-76.150273888192
 30
0.0
  0
SPLINE
  5
DD
330
1F
100
AcDbEntity
  8
0
  6
Continuous
 62
     7
370
    25
100
AcDbSpline
210
0.0
220
0.0
230
1.0
 70
     8
 71
     3
 72
    10
 73
     6
 74
     0
 42
0.000000001
 43
0.00000001
 40
0.0
 40
0.0
 40
0.0
 40
0.0
 40
0.2860562792549631
 40
0.7815583665156591
 40
1.0
 40
1.0
 40
1.0
 40
1.0
 10
395.3240048547701
 20
-248.7450748899332
 30
0.0
 10
395.8506893370238
 20
-248.9450830804396
 30
0.0
 10
397.2896882105722
 20
-249.4915422424936
 30
0.0
 10
399.2088272509352
 20
-250.0292931823743
 30
0.0
 10
400.6280946031325
 20
-250.2906985534713
 30
0.0
 10
401.0623404263768
 20
-250.3706793903423
 30
0.0
  0
LINE
  5
DE
330
1F
100
AcDbEntity
  8
0
  6
Continuous
 62
     7
370
    25
100
AcDbLine
 10
407.9166692288
 20
-251.1523618127
 30
0.0
 11
467.3212165779
 21
-252.7358894499
 31
0.0
  0
LINE
  5
DF
330
1F
100
AcDbEntity
  8
0
  6
Continuous
 62
     7
370
    25
100
AcDbLine
 10
534.2683428631
 20
-136.7674997548
 30
0.0
 11
503.1899442916
 21
-86.1163292813
 31
0.0
  0
LINE
  5
E0
330
1F
100
AcDbEntity
  8
0
  6
Continuous
 62
     7
370
    25
100
AcDbLine
 10
590.6272035222
 20
-165.7840009564
 30
0.0
 11
530.9250809834
 21
-131.3186992293
 31
0.0
  0
LINE
  5
E1
330
1F
100
AcDbEntity
  8
0
  6
Continuous
 62
     7
370
    25
100
AcDbLine
 10
460.9307717952
 20
-252.5655394269
 30
0.0
 11
520.632894334
 21
-287.0308411539
 31
0.0
  0
LWPOLYLINE
  5
E2
330
1F
100
AcDbEntity
  8
0
  6
Continuous
 62
     7
370
    25
100
AcDbPolyline
 90
      122
 70
   128
 43
0.0
 10
290.4650007148
 20
-154.9717094459
 10
290.5603158127
 20
-150.6785266582
 10
290.8459924203
 20
-146.2868757046
 10
291.3212666259
 20
-141.808592358
 10
291.984858219
 20
-137.2557480859
 10
292.8349706902
 20
-132.6406226748
 10
293.8693228412
 20
-127.9756494787
 10
295.0851171752
 20
-123.2734093332
 10
296.4790820428
 20
-118.5465788479
 10
298.0474611063
 20
-113.8078954235
 10
299.7860186074
 20
-109.070140523
 10
301.6900709775
 20
-104.3460864416
 10
303.7544868378
 20
-99.6484628466
 10
305.9737028044
 20
-94.989932444
 10
308.3417287563
 20
-90.3830666443
 10
310.8521899828
 20
-85.8402695199
 10
313.4983113779
 20
-81.3737930134
 10
316.272964856
 20
-76.9956791461
 10
319.1686693513
 20
-72.7177296002
 10
322.177614526
 20
-68.5514798648
 10
325.2916923801
 20
-64.508162737
 10
328.5025077883
 20
-60.5986718205
 10
331.8014022073
 20
-56.8335478393
 10
335.1794852864
 20
-53.2229421389
 10
338.627650672
 20
-49.7765893106
 10
342.1366010327
 20
-46.5037805783
 10
345.6968770353
 20
-43.4133349029
 10
349.2988823692
 20
-40.5135906199
 10
352.9329041615
 20
-37.8123571522
 10
356.5891468918
 20
-35.3169197657
 10
360.2577546184
 20
-33.0340084876
 10
363.9288368261
 20
-30.9697771013
 10
367.5924967432
 20
-29.1297807151
 10
371.2388583424
 20
-27.5189905937
 10
374.8580918592
 20
-26.1417490087
 10
378.4404396396
 20
-25.0017664834
 10
381.9762441283
 20
-24.1021117201
 10
385.4559735521
 20
-23.4452150244
 10
388.8702502373
 20
-23.0328397902
 10
392.2098637804
 20
-22.8661113988
 10
395.4658184633
 20
-22.9454715955
 10
398.6293293024
 20
-23.2707051054
 10
401.6918747317
 20
-23.8409335548
 10
404.6451939689
 20
-24.6546230753
 10
407.481326528
 20
-25.7095858288
 10
410.1926280244
 20
-27.0029647992
 10
412.7717886139
 20
-28.5312839853
 10
415.2118540667
 20
-30.2904240676
 10
417.5062494743
 20
-32.275630015
 10
419.6487845183
 20
-34.4815627972
 10
421.6336903489
 20
-36.9022689694
 10
423.455609048
 20
-39.5312262991
 10
425.109635776
 20
-42.361346812
 10
426.5913029671
 20
-45.385001125
 10
427.896627744
 20
-48.5940306186
 10
429.0220803081
 20
-51.979797624
 10
429.9646313548
 20
-55.5331656559
 10
430.721736268
 20
-59.2445602475
 10
431.2913614623
 20
-63.1039704747
 10
431.6719685778
 20
-67.1009953421
 10
431.8625250166
 20
-71.2248624158
 10
431.8625250166
 20
-75.4644498784
 10
431.6719685778
 20
-79.8083287332
 10
431.2913614623
 20
-84.2447932224
 10
430.721736268
 20
-88.7618787
 10
429.9646313548
 20
-93.347408018
 10
429.0220803081
 20
-97.9890223244
 10
427.896627744
 20
-102.6742092014
 10
426.5913029671
 20
-107.390334603
 10
425.109635776
 20
-112.1246854416
 10
423.455609048
 20
-116.8645045655
 10
421.6336903489
 20
-121.59700445
 10
419.6487845183
 20
-126.3094341136
 10
417.5062494743
 20
-130.9890852031
 10
415.2118540667
 20
-135.6233437014
 10
412.7717886139
 20
-140.1997233888
 10
410.1926280244
 20
-144.7058780066
 10
407.481326528
 20
-149.1296590522
 10
404.6451939689
 20
-153.4591507581
 10
401.6918747317
 20
-157.6826700897
 10
398.6293293024
 20
-161.7888382271
 10
395.4658184633
 20
-165.766583606
 10
392.2098637804
 20
-169.6051890618
 10
388.8702502373
 20
-173.2942963934
 10
385.4559735521
 20
-176.8239611113
 10
381.9762441283
 20
-180.1846744911
 10
378.4404396396
 20
-183.3673726952
 10
374.8580918592
 20
-186.3634808779
 10
371.2388583424
 20
-189.1649173657
 10
367.5924967432
 20
-191.7641267345
 10
363.9288368261
 20
-194.154102051
 10
360.2577546184
 20
-196.3284119618
 10
356.5891468918
 20
-198.2811850058
 10
352.9329041615
 20
-200.0071556205
 10
349.2988823692
 20
-201.501674405
 10
345.6968770353
 20
-202.7607169583
 10
342.1366010327
 20
-203.7808784588
 10
338.627650672
 20
-204.5594175776
 10
335.1794852864
 20
-205.094231762
 10
331.8014022073
 20
-205.3838777655
 10
328.5025077883
 20
-205.4275762075
 10
325.2916923801
 20
-205.2252138527
 10
322.177614526
 20
-204.7773344843
 10
319.1686693513
 20
-204.0851389004
 10
316.272964856
 20
-203.1504986004
 10
313.4983113779
 20
-201.9759314494
 10
310.8521899828
 20
-200.564601675
 10
308.3417287563
 20
-198.9203213861
 10
305.9737028044
 20
-197.0475201543
 10
303.7544868378
 20
-194.9512419677
 10
301.6900709775
 20
-192.6371421903
 10
299.7860186074
 20
-190.1114601817
 10
298.0474611063
 20
-187.3810010454
 10
296.4790820428
 20
-184.4531295436
 10
295.0851171752
 20
-181.3357366366
 10
293.8693228412
 20
-178.0372227499
 10
292.8349706902
 20
-174.5664871274
 10
291.984858219
 20
-170.9328806833
 10
291.3212666259
 20
-167.1462029563
 10
290.8459924203
 20
-163.2166595271
 10
290.5603158127
 20
-159.1548437639
 10
290.4650007148
 20
-154.9717094459
  0
LWPOLYLINE
  5
E3
330
1F
100
AcDbEntity
  8
0
  6
Continuous
 62
     7
370
    25
100
AcDbPolyline
 90
      110
 70
   128
 43
0.0
 10
303.3343459785
 20
-147.5423945626
 10
303.4304144513
 20
-143.6388559207
 10
303.7183143051
 20
-139.6373587609
 10
304.1970761624
 20
-135.5512015871
 10
304.865114248
 20
-131.393958133
 10
305.7202158524
 20
-127.1794313527
 10
306.7595307949
 20
-122.9216302263
 10
307.9796083023
 20
-118.6346975187
 10
309.3764022771
 20
-114.3328656739
 10
310.9452660294
 20
-110.0304355209
 10
312.6809944233
 20
-105.7416880644
 10
314.5778133405
 20
-101.4808799209
 10
316.6294270956
 20
-97.262164235
 10
318.8290184358
 20
-93.0995480934
 10
321.1692801513
 20
-89.0068681933
 10
323.6424387827
 20
-84.9977132771
 10
326.2402809628
 20
-81.085405884
 10
328.9541744904
 20
-77.2829354311
 10
331.7751052081
 20
-73.6029430077
 10
334.6937007104
 20
-70.0576468521
 10
337.7002672224
 20
-66.6588241039
 10
340.7848159408
 20
-63.4177651788
 10
343.9371012302
 20
-60.3452395515
 10
347.1466509159
 20
-57.4514539327
 10
350.4028044792
 20
-54.746018052
 10
353.6947446683
 20
-52.2379203263
 10
357.0115350343
 20
-49.9354940225
 10
360.342158704
 20
-47.8463827076
 10
363.6755510594
 20
-45.9775335501
 10
367.0006390862
 20
-44.3351441866
 10
370.3063777584
 20
-42.9246843034
 10
373.5817838704
 20
-41.7508274351
 10
376.8159789258
 20
-40.8174809601
 10
379.9982187706
 20
-40.1277446577
 10
383.1179324487
 20
-39.6839004455
 10
386.1647544693
 20
-39.4874363372
 10
389.1285682718
 20
-39.5389909329
 10
391.9995220303
 20
-39.8384051319
 10
394.7680826546
 20
-40.3846787914
 10
397.425054229
 20
-41.175996584
 10
399.9616096231
 20
-42.2097310427
 10
402.3693194671
 20
-43.4824471261
 10
404.6401890306
 20
-44.9899204731
 10
406.7666740279
 20
-46.7271404463
 10
408.7417122277
 20
-48.6883344697
 10
410.5587366239
 20
-50.8669938857
 10
412.2117202175
 20
-53.2558724382
 10
413.6951628445
 20
-55.847042546
 10
415.0041438605
 20
-58.6318937866
 10
416.1343116033
 20
-61.6011739601
 10
417.0819150035
 20
-64.7450195107
 10
417.8437983156
 20
-68.0529905079
 10
418.4174379973
 20
-71.5140934633
 10
418.8009269035
 20
-75.1168330408
 10
418.9929900922
 20
-78.8492413361
 10
418.9929900922
 20
-82.6989197024
 10
418.8009269035
 20
-86.6530794352
 10
418.4174379973
 20
-90.6985858793
 10
417.8437983156
 20
-94.8219991134
 10
417.0819150035
 20
-99.0096218589
 10
416.1343116033
 20
-103.2475470073
 10
415.0041438605
 20
-107.5216910818
 10
413.6951628445
 20
-111.8178596341
 10
412.2117202175
 20
-116.1217761423
 10
410.5587366239
 20
-120.4191489285
 10
408.7417122277
 20
-124.6957000575
 10
406.7666740279
 20
-128.9372246481
 10
404.6401890306
 20
-133.129631939
 10
402.3693194671
 20
-137.2589954757
 10
399.9616096231
 20
-141.3115941735
 10
397.425054229
 20
-145.2739731522
 10
394.7680826546
 20
-149.1329650274
 10
391.9995220303
 20
-152.875750744
 10
389.1285682718
 20
-156.4898975964
 10
386.1647544693
 20
-159.9633987703
 10
383.1179324487
 20
-163.2847204889
 10
379.9982187706
 20
-166.4428210198
 10
376.8159789258
 20
-169.4272206361
 10
373.5817838704
 20
-172.227996289
 10
370.3063777584
 20
-174.8358428219
 10
367.0006390862
 20
-177.2421075682
 10
363.6755510594
 20
-179.4387831238
 10
360.342158704
 20
-181.418586859
 10
357.0115350343
 20
-183.1749317801
 10
353.6947446683
 20
-184.7019901201
 10
350.4028044792
 20
-185.9946856345
 10
347.1466509159
 20
-187.0487246355
 10
343.9371012302
 20
-187.8606062063
 10
340.7848159408
 20
-188.4276317041
 10
337.7002672224
 20
-188.747916924
 10
334.6937007104
 20
-188.8204019817
 10
331.7751052081
 20
-188.6448444662
 10
328.9541744904
 20
-188.2218293227
 10
326.2402809628
 20
-187.5527536405
 10
323.6424387827
 20
-186.6398509845
 10
321.1692801513
 20
-185.4861442441
 10
318.8290184358
 20
-184.0954730069
 10
316.6294270956
 20
-182.4724509699
 10
314.5778133405
 20
-180.6224781055
 10
312.6809944233
 20
-178.551690468
 10
310.9452660294
 20
-176.2669723581
 10
309.3764022771
 20
-173.7759137373
 10
307.9796083023
 20
-171.0867858885
 10
306.7595307949
 20
-168.2085246866
 10
305.7202158524
 20
-165.1506910508
 10
304.865114248
 20
-161.9234435681
 10
304.1970761624
 20
-158.5375004699
 10
303.7183143051
 20
-155.0041099707
 10
303.4304144513
 20
-151.3350149067
 10
303.3343459785
 20
-147.5423945626
  0
ARC
  5
E4
330
1F
100
AcDbEntity
  8
0
  6
Continuous
 62
     7
370
    25
100
AcDbCircle
 10
473.2575773594
 20
-102.2176446256
 30
0.0
 40
33.62847599883397
100
AcDbArc
 50
51.1699764205
 51
59.9818002921
  0
LWPOLYLINE
  5
E5
330
1F
100
AcDbEntity
  8
0
  6
Continuous
 62
     7
370
    25
100
AcDbPolyline
 90
        3
 70
   128
 43
0.0
 10
395.1119298156
 20
-248.677645119
 10
392.4077616734
 20
-247.5293874724
 10
390.0891950481
 20
-246.3096459939
  0
ARC
  5
E6
330
1F
100
AcDbEntity
  8
0
  6
Continuous
 62
     7
370
    25
100
AcDbCircle
 10
465.1857352106
 20
-109.6295310491
 30
0.0
 40
44.67597210441509
100
AcDbArc
 50
20.3852979249
 51
39.1041186784
  0
ARC
  5
E7
330
1F
100
AcDbEntity
  8
0
  6
Continuous
 62
     7
370
    25
100
AcDbCircle
 10
409.3232319841
 20
-207.3442795663
 30
0.0
 40
43.82509780466079
100
AcDbArc
 50
259.4065606839
 51
280.5329003036
  0
ARC
  5
E8
330
1F
100
AcDbEntity
  8
0
  6
Continuous
 62
     7
370
    25
100
AcDbCircle
 10
506.6888690347
 20
-153.6215209257
 30
0.0
 40
32.32159349843683
100
AcDbArc
 50
23.0674895316
 51
31.4294117474
  0
ARC
  5
E9
330
1F
100
AcDbEntity
  8
0
  6
Continuous
 62
     7
370
    25
100
AcDbCircle
 10
468.1058952822
 20
-219.8398921943
 30
0.0
 40
32.90535452036234
100
AcDbArc
 50
268.6335646342
 51
278.345754242
  0
LWPOLYLINE
  5
EA
330
1F
100
AcDbEntity
  8
0
  6
Continuous
 62
     7
370
    25
100
AcDbPolyline
 90
       53
 70
   128
 43
0.0
 10
590.6272035222
 20
-165.7840009564
 10
590.9011554034
 20
-165.9446440294
 10
592.9918787997
 20
-167.3474212348
 10
594.9380543107
 20
-168.9786948501
 10
596.7321560898
 20
-170.8321447225
 10
598.3672430778
 20
-172.9006051193
 10
599.836987979
 20
-175.1760723354
 10
601.1357009691
 20
-177.6497457602
 10
602.2583665728
 20
-180.3120522162
 10
603.2006331283
 20
-183.1526931068
 10
603.9588602014
 20
-186.1606763596
 10
604.5301133177
 20
-189.324366617
 10
604.9121797678
 20
-192.631525162
 10
605.1035791436
 20
-196.0693585883
 10
605.1035791436
 20
-199.6245613883
 10
604.9121797678
 20
-203.2833798301
 10
604.5301133177
 20
-207.0316629087
 10
603.9588602014
 20
-210.8549079753
 10
603.2006331283
 20
-214.7383215726
 10
602.2583665728
 20
-218.6668802711
 10
601.1357009691
 20
-222.6253888428
 10
599.836987979
 20
-226.598524369
 10
598.3672430778
 20
-230.5709229278
 10
596.7321560898
 20
-234.5272145773
 10
594.9380543107
 20
-238.4520902723
 10
592.9918787997
 20
-242.3303703037
 10
590.9011554034
 20
-246.1470453613
 10
588.6739763166
 20
-249.8873510569
 10
586.3189553016
 20
-253.5368181107
 10
583.8452066144
 20
-257.0813271032
 10
581.2622975895
 20
-260.5071662651
 10
578.5802222984
 20
-263.8010771032
 10
575.8093580855
 20
-266.9503220775
 10
572.9604234211
 20
-269.9427119735
 10
570.0444423404
 20
-272.7666751013
 10
567.0726930766
 20
-275.4112778233
 10
564.0566751339
 20
-277.866298316
 10
561.0080559453
 20
-280.1222391122
 10
557.9386305369
 20
-282.1703625546
 10
554.8602735363
 20
-284.0027489186
 10
551.7848948032
 20
-285.6123098587
 10
548.7243918497
 20
-286.99282196
 10
545.6906057176
 20
-288.1389339582
 10
542.6952733164
 20
-289.0462246727
 10
539.7499830538
 20
-289.7111799512
 10
536.8661297255
 20
-290.1312247949
 10
534.0548703924
 20
-290.3047305786
 10
531.3270828929
 20
-290.2310298763
 10
528.6933157927
 20
-289.9104088512
 10
526.163764678
 20
-289.3441087751
 10
523.7482102519
 20
-288.5343191778
 10
521.456001212
 20
-287.4841725229
 10
520.632894334
 20
-287.0308411539
  0
LWPOLYLINE
  5
EB
330
1F
100
AcDbEntity
  8
0
  6
Continuous
 62
     1
370
    25
100
AcDbPolyline
 90
       59
 70
   128
 43
0.0
 10
494.3430389321
 20
-76.0207419791
 10
496.4156997697
 20
-77.8290860379
 10
498.5582348137
 20
-80.0350188201
 10
500.5431406443
 20
-82.4557249924
 10
502.3650593434
 20
-85.0846823221
 10
504.0190860715
 20
-87.914802835
 10
505.5007532625
 20
-90.938457148
 10
506.8060780394
 20
-94.1474866416
 10
507.9315306035
 20
-97.533253647
 10
508.8740816502
 20
-101.0866216788
 10
509.6311865634
 20
-104.7980162705
 10
510.2008117577
 20
-108.6574264977
 10
510.5814188732
 20
-112.6544513651
 10
510.7719753121
 20
-116.7783184388
 10
510.7719753121
 20
-121.0179059014
 10
510.5814188732
 20
-125.3617847562
 10
510.2008117577
 20
-129.7982492454
 10
509.6311865634
 20
-134.315334723
 10
508.8740816502
 20
-138.900864041
 10
507.9315306035
 20
-143.5424783473
 10
506.8060780394
 20
-148.2276652244
 10
505.5007532625
 20
-152.9437906259
 10
504.0190860715
 20
-157.6781414645
 10
502.3650593434
 20
-162.4179605885
 10
500.5431406443
 20
-167.150460473
 10
498.5582348137
 20
-171.8628901366
 10
496.4156997697
 20
-176.5425412261
 10
494.1213043621
 20
-181.1767997244
 10
491.6812389093
 20
-185.7531794118
 10
489.1020783198
 20
-190.2593340296
 10
486.3907768234
 20
-194.6831150752
 10
483.5546442643
 20
-199.0126067811
 10
480.6013250271
 20
-203.2361261126
 10
477.5387795978
 20
-207.3422942501
 10
474.3752687587
 20
-211.3200396289
 10
471.1193140758
 20
-215.1586450848
 10
467.7797005327
 20
-218.8477524164
 10
464.3654238475
 20
-222.3774171342
 10
460.8856944237
 20
-225.7381305141
 10
457.349889935
 20
-228.9208287182
 10
453.7675421546
 20
-231.9169369009
 10
450.1483086378
 20
-234.7183733886
 10
446.5019470386
 20
-237.3175827574
 10
442.8382871215
 20
-239.707558074
 10
439.1672049139
 20
-241.8818679847
 10
435.4985971872
 20
-243.8346410288
 10
431.8423544569
 20
-245.5606116435
 10
428.2083326647
 20
-247.055130428
 10
424.6063273307
 20
-248.3141729813
 10
421.0460513281
 20
-249.3343344817
 10
417.5371009674
 20
-250.1128736006
 10
414.0889355818
 20
-250.647687785
 10
410.7108525028
 20
-250.9373337884
 10
407.4119580837
 20
-250.9810322304
 10
404.2011426755
 20
-250.7786698757
 10
401.0870648214
 20
-250.3307905073
 10
398.0781196467
 20
-249.6385949233
 10
395.1824151514
 20
-248.7039546233
 10
395.1119298156
 20
-248.677645119
  0
ARC
  5
EC
330
1F
100
AcDbEntity
  8
0
  6
Continuous
 62
     1
370
    25
100
AcDbCircle
 10
519.3692904738
 20
-205.4745279687
 30
0.0
 40
139.2796634018218
100
AcDbArc
 50
140.4597469194
 51
159.5456307761
  0
LWPOLYLINE
  5
ED
330
1F
100
AcDbEntity
  8
0
  6
Continuous
 62
     1
370
    25
100
AcDbPolyline
 90
       45
 70
   128
 43
0.0
 10
507.0637138218
 20
-94.0674813475
 10
507.7793567728
 20
-96.0685271274
 10
508.8291188654
 20
-99.5549160431
 10
509.6919649531
 20
-103.2070439954
 10
510.3655348126
 20
-107.0148962269
 10
510.8479792508
 20
-110.9680397738
 10
511.1379759103
 20
-115.0556386762
 10
511.2347292695
 20
-119.2664889598
 10
511.1379759103
 20
-123.589048294
 10
510.8479792508
 20
-128.0114702126
 10
510.3655348126
 20
-132.5216322513
 10
509.6919649531
 20
-137.1071716891
 10
508.8291188654
 20
-141.7555205291
 10
507.7793567728
 20
-146.4539389581
 10
506.5455604662
 20
-151.1895450051
 10
505.1311069618
 20
-155.9493654901
 10
503.5398790381
 20
-160.7203451503
 10
501.7762336254
 20
-165.4894166005
 10
499.8450070747
 20
-170.2435003326
 10
497.7514888155
 20
-174.9695716345
 10
495.5014213558
 20
-179.6546697156
 10
493.1009686723
 20
-184.2859615826
 10
490.5567109417
 20
-188.8507511643
 10
487.8756234674
 20
-193.3365249381
 10
485.065055606
 20
-197.7309853876
 10
482.1327123285
 20
-202.0220859826
 10
479.0866252435
 20
-206.1980722416
 10
475.9351473297
 20
-210.2474908561
 10
472.6869134226
 20
-214.1592490037
 10
469.3508323122
 20
-217.92261891
 10
465.9360419623
 20
-221.5272941183
 10
462.4519068757
 20
-224.963384927
 10
458.9079733136
 20
-228.221480743
 10
455.3139561246
 20
-231.2926455181
 10
451.679707793
 20
-234.1684660351
 10
448.0151874875
 20
-236.8410576086
 10
444.3304399875
 20
-239.3030945013
 10
440.6355653899
 20
-241.5478274121
 10
436.9406907924
 20
-243.569105907
 10
433.2559432924
 20
-245.3613879221
 10
429.5914229868
 20
-246.9197614348
 10
425.9571746553
 20
-248.2399547267
 10
422.3631574663
 20
-249.3183538721
 10
418.8192239041
 20
-250.1519966518
 10
417.3344641881
 20
-250.4309289621
  0
LWPOLYLINE
  5
EE
330
1F
100
AcDbEntity
  8
0
  6
Continuous
 62
     1
370
    25
100
AcDbPolyline
 90
       39
 70
   128
 43
0.0
 10
536.4261561397
 20
-140.9574314632
 10
537.045672666
 20
-142.5010695663
 10
537.9900623689
 20
-145.3481091908
 10
538.7499963893
 20
-148.36287137
 10
539.3225349846
 20
-151.5336903272
 10
539.7054654451
 20
-154.8482980675
 10
539.8972968261
 20
-158.2938760884
 10
539.8972968261
 20
-161.857088844
 10
539.7054654451
 20
-165.524150663
 10
539.3225349846
 20
-169.2808805022
 10
538.7499963893
 20
-173.1127384508
 10
537.9900623689
 20
-177.004901774
 10
537.045672666
 20
-180.9423105404
 10
535.9204782513
 20
-184.9097360627
 10
534.6188360553
 20
-188.8918250041
 10
533.1457826264
 20
-192.8731723798
 10
531.5070130575
 20
-196.8383763088
 10
529.7088704494
 20
-200.7720942871
 10
527.7583090319
 20
-204.6591116256
 10
525.6628757253
 20
-208.4843855556
 10
523.4306785294
 20
-212.2331182301
 10
521.0703522798
 20
-215.8908099528
 10
518.5910296718
 20
-219.4433032826
 10
516.0023017477
 20
-222.8768605968
 10
513.3141836522
 20
-226.1781929858
 10
510.5370764373
 20
-229.3345309721
 10
507.6817235982
 20
-232.3336617694
 10
504.7591715604
 20
-235.1639916364
 10
501.7807275331
 20
-237.814551957
 10
498.7579147282
 20
-240.2751072214
 10
495.7024275789
 20
-242.536120041
 10
492.62608663
 20
-244.5888623614
 10
489.5407943325
 20
-246.425374061
 10
486.4584867234
 20
-248.0385638502
 10
483.3910888089
 20
-249.4221863583
 10
480.3504676433
 20
-250.5708813878
 10
477.348386478
 20
-251.4802186352
 10
474.396460721
 20
-252.1466683611
 10
472.8819874767
 20
-252.3967854653
  0
ARC
  5
EF
330
1F
100
AcDbEntity
  8
0
  6
Continuous
 62
     1
370
    25
100
AcDbCircle
 10
521.3620984777
 20
-206.6249494676
 30
0.0
 40
139.7590892428485
100
AcDbArc
 50
143.0878505328
 51
156.9175303022
  0
LWPOLYLINE
  5
F0
330
1F
100
AcDbEntity
  8
0
  6
Continuous
 62
     1
370
    25
100
AcDbPolyline
 90
       45
 70
   128
 43
0.0
 10
533.008794832
 20
-134.7147037541
 10
533.5999333583
 20
-135.5112330735
 10
535.0696782596
 20
-137.7867002895
 10
536.3683912496
 20
-140.2603737143
 10
537.4910568534
 20
-142.9226801704
 10
538.4333234089
 20
-145.7633210609
 10
539.1915504819
 20
-148.7713043137
 10
539.7628035983
 20
-151.9349945712
 10
540.1448700484
 20
-155.2421531161
 10
540.3362694242
 20
-158.6799865424
 10
540.3362694242
 20
-162.2351893424
 10
540.1448700484
 20
-165.8940077842
 10
539.7628035983
 20
-169.6422908628
 10
539.1915504819
 20
-173.4655359294
 10
538.4333234089
 20
-177.3489495267
 10
537.4910568534
 20
-181.2775082252
 10
536.3683912496
 20
-185.236016797
 10
535.0696782596
 20
-189.2091523231
 10
533.5999333583
 20
-193.1815508819
 10
531.9648463704
 20
-197.1378425314
 10
530.1707445913
 20
-201.0627182264
 10
528.2245690803
 20
-204.9409982578
 10
526.1338456839
 20
-208.7576733154
 10
523.9066665972
 20
-212.497979011
 10
521.5516455822
 20
-216.1474460649
 10
519.0778968949
 20
-219.6919550573
 10
516.4949878701
 20
-223.1177942192
 10
513.812912579
 20
-226.4117050574
 10
511.042048366
 20
-229.5609500316
 10
508.1931137017
 20
-232.5533399276
 10
505.277132621
 20
-235.3773030554
 10
502.3053833572
 20
-238.0219057775
 10
499.2893654145
 20
-240.4769262701
 10
496.2407462259
 20
-242.7328670664
 10
493.1713208175
 20
-244.7809905088
 10
490.0929638168
 20
-246.6133768727
 10
487.0175850837
 20
-248.2229378128
 10
483.9570821302
 20
-249.6034499142
 10
480.9232959981
 20
-250.7495619124
 10
477.9279635969
 20
-251.6568526269
 10
474.9826733344
 20
-252.3218079054
 10
472.098820006
 20
-252.741852749
 10
469.287560673
 20
-252.9153585328
 10
466.5597731734
 20
-252.8416578304
 10
464.9136647846
 20
-252.6717102584
  0
ENDSEC
  0
SECTION
  2
OBJECTS
  0
DICTIONARY
  5
C
330
0
100
AcDbDictionary
281
     1
  3
ACAD_GROUP
350
D
  3
ACAD_LAYOUT
350
1A
  3
ACAD_MLINESTYLE
350
17
  3
ACAD_PLOTSETTINGS
350
19
  3
ACAD_PLOTSTYLENAME
350
E
  3
ACAD_SCALELIST
350
47
  0
DICTIONARY
  5
D
102
{ACAD_REACTORS
330
C
102
}
330
C
100
AcDbDictionary
281
     1
  0
DICTIONARY
  5
1A
102
{ACAD_REACTORS
330
C
102
}
330
C
100
AcDbDictionary
281
     1
  3
Layout1
350
1E
  3
Layout2
350
26
  3
Model
350
22
  0
DICTIONARY
  5
17
102
{ACAD_REACTORS
330
C
102
}
330
C
100
AcDbDictionary
281
     1
  3
Standard
350
18
  0
DICTIONARY
  5
19
102
{ACAD_REACTORS
330
C
102
}
330
C
100
AcDbDictionary
281
     1
  0
ACDBDICTIONARYWDFLT
  5
E
102
{ACAD_REACTORS
330
C
102
}
330
C
100
AcDbDictionary
281
     1
  3
Normal
350
F
100
AcDbDictionaryWithDefault
340
F
  0
DICTIONARY
  5
47
102
{ACAD_REACTORS
330
C
102
}
330
C
100
AcDbDictionary
281
     1
  3
A0
350
48
  3
A1
350
49
  3
A2
350
4A
  3
A3
350
4B
  3
A4
350
4C
  3
A5
350
4D
  3
A6
350
4E
  3
A7
350
4F
  3
A8
350
50
  3
A9
350
51
  3
B0
350
52
  3
B1
350
53
  3
B2
350
54
  3
B3
350
55
  3
B4
350
56
  3
B5
350
57
  3
B6
350
58
  3
B7
350
59
  3
B8
350
5A
  3
B9
350
5B
  3
C0
350
5C
  3
C1
350
5D
  3
C2
350
5E
  3
C3
350
5F
  3
C4
350
60
  3
C5
350
61
  3
C6
350
62
  3
C7
350
63
  3
C8
350
64
  3
C9
350
65
  3
D0
350
66
  3
D1
350
67
  3
D2
350
68
  0
LAYOUT
  5
1E
102
{ACAD_REACTORS
330
1A
102
}
330
1A
100
AcDbPlotSettings
  1

  2
none_device
  4

  6

 40
0.0
 41
0.0
 42
0.0
 43
0.0
 44
0.0
 45
0.0
 46
0.0
 47
0.0
 48
0.0
 49
0.0
140
0.0
141
0.0
142
1.0
143
1.0
 70
   688
 72
     1
 73
     0
 74
     5
  7

 75
    16
147
1.0
148
0.0
149
0.0
100
AcDbLayout
  1
Layout1
 70
     1
 71
     1
 10
0.0
 20
0.0
 11
420.0
 21
297.0
 12
0.0
 22
0.0
 32
0.0
 14
1.0000000000E+20
 24
1.0000000000E+20
 34
1.0000000000E+20
 15
-1.0000000000E+20
 25
-1.0000000000E+20
 35
-1.0000000000E+20
146
0.0
 13
0.0
 23
0.0
 33
0.0
 16
1.0
 26
0.0
 36
0.0
 17
0.0
 27
1.0
 37
0.0
 76
     0
330
1B
  0
LAYOUT
  5
26
102
{ACAD_REACTORS
330
1A
102
}
330
1A
100
AcDbPlotSettings
  1

  2
none_device
  4

  6

 40
0.0
 41
0.0
 42
0.0
 43
0.0
 44
0.0
 45
0.0
 46
0.0
 47
0.0
 48
0.0
 49
0.0
140
0.0
141
0.0
142
1.0
143
1.0
 70
   688
 72
     1
 73
     0
 74
     5
  7

 75
    16
147
1.0
148
0.0
149
0.0
100
AcDbLayout
  1
Layout2
 70
     1
 71
     2
 10
0.0
 20
0.0
 11
0.0
 21
0.0
 12
0.0
 22
0.0
 32
0.0
 14
0.0
 24
0.0
 34
0.0
 15
0.0
 25
0.0
 35
0.0
146
0.0
 13
0.0
 23
0.0
 33
0.0
 16
1.0
 26
0.0
 36
0.0
 17
0.0
 27
1.0
 37
0.0
 76
     0
330
23
  0
LAYOUT
  5
22
102
{ACAD_REACTORS
330
1A
102
}
330
1A
100
AcDbPlotSettings
  1

  2
none_device
  4
Letter_(8.50_x_11.00_Inches)
  6

 40
6.35
 41
6.35
 42
6.35000508
 43
6.35000508
 44
215.9
 45
279.4
 46
0.0
 47
0.0
 48
0.0
 49
0.0
140
0.0
141
0.0
142
1.0
143
1.0
 70
  1712
 72
     1
 73
     0
 74
     0
  7

 75
     0
147
1.0
148
0.0
149
0.0
100
AcDbLayout
  1
Model
 70
     1
 71
     0
 10
0.0
 20
0.0
 11
279.4
 21
215.9
 12
0.0
 22
0.0
 32
0.0
 14
0.0
 24
0.0
 34
0.0
 15
279.4
 25
215.9
 35
0.0
146
0.0
 13
0.0
 23
0.0
 33
0.0
 16
1.0
 26
0.0
 36
0.0
 17
0.0
 27
1.0
 37
0.0
 76
     0
330
1F
331
29
  0
MLINESTYLE
  5
18
102
{ACAD_REACTORS
330
17
102
}
330
17
100
AcDbMlineStyle
  2
Standard
 70
     0
  3

 62
   256
 51
90.0
 52
90.0
 71
     2
 49
0.5
 62
   256
  6
BYLAYER
 49
-0.5
 62
   256
  6
BYLAYER
  0
ACDBPLACEHOLDER
  5
F
102
{ACAD_REACTORS
330
E
102
}
330
E
  0
SCALE
  5
48
102
{ACAD_REACTORS
330
47
102
}
330
47
100
AcDbScale
 70
     0
300
1:1
140
1.0
141
1.0
290
     1
  0
SCALE
  5
49
102
{ACAD_REACTORS
330
47
102
}
330
47
100
AcDbScale
 70
     0
300
1:2
140
1.0
141
2.0
290
     0
  0
SCALE
  5
4A
102
{ACAD_REACTORS
330
47
102
}
330
47
100
AcDbScale
 70
     0
300
1:4
140
1.0
141
4.0
290
     0
  0
SCALE
  5
4B
102
{ACAD_REACTORS
330
47
102
}
330
47
100
AcDbScale
 70
     0
300
1:5
140
1.0
141
5.0
290
     0
  0
SCALE
  5
4C
102
{ACAD_REACTORS
330
47
102
}
330
47
100
AcDbScale
 70
     0
300
1:8
140
1.0
141
8.0
290
     0
  0
SCALE
  5
4D
102
{ACAD_REACTORS
330
47
102
}
330
47
100
AcDbScale
 70
     0
300
1:10
140
1.0
141
10.0
290
     0
  0
SCALE
  5
4E
102
{ACAD_REACTORS
330
47
102
}
330
47
100
AcDbScale
 70
     0
300
1:16
140
1.0
141
16.0
290
     0
  0
SCALE
  5
4F
102
{ACAD_REACTORS
330
47
102
}
330
47
100
AcDbScale
 70
     0
300
1:20
140
1.0
141
20.0
290
     0
  0
SCALE
  5
50
102
{ACAD_REACTORS
330
47
102
}
330
47
100
AcDbScale
 70
     0
300
1:30
140
1.0
141
30.0
290
     0
  0
SCALE
  5
51
102
{ACAD_REACTORS
330
47
102
}
330
47
100
AcDbScale
 70
     0
300
1:40
140
1.0
141
40.0
290
     0
  0
SCALE
  5
52
102
{ACAD_REACTORS
330
47
102
}
330
47
100
AcDbScale
 70
     0
300
1:50
140
1.0
141
50.0
290
     0
  0
SCALE
  5
53
102
{ACAD_REACTORS
330
47
102
}
330
47
100
AcDbScale
 70
     0
300
1:100
140
1.0
141
100.0
290
     0
  0
SCALE
  5
54
102
{ACAD_REACTORS
330
47
102
}
330
47
100
AcDbScale
 70
     0
300
2:1
140
2.0
141
1.0
290
     0
  0
SCALE
  5
55
102
{ACAD_REACTORS
330
47
102
}
330
47
100
AcDbScale
 70
     0
300
4:1
140
4.0
141
1.0
290
     0
  0
SCALE
  5
56
102
{ACAD_REACTORS
330
47
102
}
330
47
100
AcDbScale
 70
     0
300
8:1
140
8.0
141
1.0
290
     0
  0
SCALE
  5
57
102
{ACAD_REACTORS
330
47
102
}
330
47
100
AcDbScale
 70
     0
300
10:1
140
10.0
141
1.0
290
     0
  0
SCALE
  5
58
102
{ACAD_REACTORS
330
47
102
}
330
47
100
AcDbScale
 70
     0
300
100:1
140
100.0
141
1.0
290
     0
  0
SCALE
  5
59
102
{ACAD_REACTORS
330
47
102
}
330
47
100
AcDbScale
 70
     0
300
1/128" = 1'-0"
140
0.0078125
141
12.0
290
     0
  0
SCALE
  5
5A
102
{ACAD_REACTORS
330
47
102
}
330
47
100
AcDbScale
 70
     0
300
1/64" = 1'-0"
140
0.015625
141
12.0
290
     0
  0
SCALE
  5
5B
102
{ACAD_REACTORS
330
47
102
}
330
47
100
AcDbScale
 70
     0
300
1/32" = 1'-0"
140
0.03125
141
12.0
290
     0
  0
SCALE
  5
5C
102
{ACAD_REACTORS
330
47
102
}
330
47
100
AcDbScale
 70
     0
300
1/16" = 1'-0"
140
0.0625
141
12.0
290
     0
  0
SCALE
  5
5D
102
{ACAD_REACTORS
330
47
102
}
330
47
100
AcDbScale
 70
     0
300
3/32" = 1'-0"
140
0.09375
141
12.0
290
     0
  0
SCALE
  5
5E
102
{ACAD_REACTORS
330
47
102
}
330
47
100
AcDbScale
 70
     0
300
1/8" = 1'-0"
140
0.125
141
12.0
290
     0
  0
SCALE
  5
5F
102
{ACAD_REACTORS
330
47
102
}
330
47
100
AcDbScale
 70
     0
300
3/16" = 1'-0"
140
0.1875
141
12.0
290
     0
  0
SCALE
  5
60
102
{ACAD_REACTORS
330
47
102
}
330
47
100
AcDbScale
 70
     0
300
1/4" = 1'-0"
140
0.25
141
12.0
290
     0
  0
SCALE
  5
61
102
{ACAD_REACTORS
330
47
102
}
330
47
100
AcDbScale
 70
     0
300
3/8" = 1'-0"
140
0.375
141
12.0
290
     0
  0
SCALE
  5
62
102
{ACAD_REACTORS
330
47
102
}
330
47
100
AcDbScale
 70
     0
300
1/2" = 1'-0"
140
0.5
141
12.0
290
     0
  0
SCALE
  5
63
102
{ACAD_REACTORS
330
47
102
}
330
47
100
AcDbScale
 70
     0
300
3/4" = 1'-0"
140
0.75
141
12.0
290
     0
  0
SCALE
  5
64
102
{ACAD_REACTORS
330
47
102
}
330
47
100
AcDbScale
 70
     0
300
1" = 1'-0"
140
1.0
141
12.0
290
     0
  0
SCALE
  5
65
102
{ACAD_REACTORS
330
47
102
}
330
47
100
AcDbScale
 70
     0
300
1-1/2" = 1'-0"
140
1.5
141
12.0
290
     0
  0
SCALE
  5
66
102
{ACAD_REACTORS
330
47
102
}
330
47
100
AcDbScale
 70
     0
300
3" = 1'-0"
140
3.0
141
12.0
290
     0
  0
SCALE
  5
67
102
{ACAD_REACTORS
330
47
102
}
330
47
100
AcDbScale
 70
     0
300
6" = 1'-0"
140
6.0
141
12.0
290
     0
  0
SCALE
  5
68
102
{ACAD_REACTORS
330
47
102
}
330
47
100
AcDbScale
 70
     0
300
1'-0" = 1'-0"
140
12.0
141
12.0
290
     0
  0
ENDSEC
  0
EOF
